ISO-10303-21;
HEADER;
/* Generated by software containing ST-Developer
 * from STEP Tools, Inc. (www.steptools.com) 
 */

FILE_DESCRIPTION(
/* description */ (''),
/* implementation_level */ '2;1');

FILE_NAME(
/* name */ 
'/var/folders/m2/4j_t75k90fbf_vh29hmnfdmh0000gn/T/com.autodesk.mas.fus
ion360/Neutron/14e33a1f-fffa-4e88-8e69-666ac1ead6c9.stp',
/* time_stamp */ '2018-05-07T12:05:27-04:00',
/* author */ ('jmiddendorf'),
/* organization */ (''),
/* preprocessor_version */ 'ST-DEVELOPER v17',
/* originating_system */ 'Autodesk Translation Framework v7.1.0.215',
/* authorisation */ '');

FILE_SCHEMA (('AUTOMOTIVE_DESIGN { 1 0 10303 214 3 1 1 }'));
ENDSEC;

DATA;
#10=MECHANICAL_DESIGN_GEOMETRIC_PRESENTATION_REPRESENTATION('',(#13),#346);
#11=SHAPE_REPRESENTATION_RELATIONSHIP('SRR','None',#353,#12);
#12=ADVANCED_BREP_SHAPE_REPRESENTATION('',(#14),#345);
#13=STYLED_ITEM('',(#362),#14);
#14=MANIFOLD_SOLID_BREP('Body1',#184);
#15=SPHERICAL_SURFACE('',#218,14.3);
#16=FACE_BOUND('',#40,.T.);
#17=FACE_BOUND('',#44,.T.);
#18=FACE_BOUND('',#49,.T.);
#19=PLANE('',#203);
#20=PLANE('',#213);
#21=PLANE('',#223);
#22=CYLINDRICAL_SURFACE('',#201,6.);
#23=CYLINDRICAL_SURFACE('',#210,15.875);
#24=CYLINDRICAL_SURFACE('',#222,12.8);
#25=CYLINDRICAL_SURFACE('',#225,14.3);
#26=FACE_OUTER_BOUND('',#37,.T.);
#27=FACE_OUTER_BOUND('',#38,.T.);
#28=FACE_OUTER_BOUND('',#39,.T.);
#29=FACE_OUTER_BOUND('',#41,.T.);
#30=FACE_OUTER_BOUND('',#42,.T.);
#31=FACE_OUTER_BOUND('',#43,.T.);
#32=FACE_OUTER_BOUND('',#45,.T.);
#33=FACE_OUTER_BOUND('',#46,.T.);
#34=FACE_OUTER_BOUND('',#47,.T.);
#35=FACE_OUTER_BOUND('',#48,.T.);
#36=FACE_OUTER_BOUND('',#50,.T.);
#37=EDGE_LOOP('',(#122,#123,#124,#125));
#38=EDGE_LOOP('',(#126,#127,#128,#129));
#39=EDGE_LOOP('',(#130,#131));
#40=EDGE_LOOP('',(#132));
#41=EDGE_LOOP('',(#133,#134,#135,#136,#137));
#42=EDGE_LOOP('',(#138,#139,#140,#141,#142,#143));
#43=EDGE_LOOP('',(#144));
#44=EDGE_LOOP('',(#145,#146));
#45=EDGE_LOOP('',(#147,#148,#149,#150));
#46=EDGE_LOOP('',(#151,#152,#153,#154,#155));
#47=EDGE_LOOP('',(#156,#157,#158,#159,#160,#161));
#48=EDGE_LOOP('',(#162,#163));
#49=EDGE_LOOP('',(#164));
#50=EDGE_LOOP('',(#165,#166,#167,#168,#169));
#51=LINE('',#296,#58);
#52=LINE('',#300,#59);
#53=LINE('',#311,#60);
#54=LINE('',#320,#61);
#55=LINE('',#329,#62);
#56=LINE('',#337,#63);
#57=LINE('',#342,#64);
#58=VECTOR('',#232,7.5);
#59=VECTOR('',#237,6.);
#60=VECTOR('',#250,15.375);
#61=VECTOR('',#261,15.875);
#62=VECTOR('',#272,6.44624624331001);
#63=VECTOR('',#283,12.8);
#64=VECTOR('',#290,14.3);
#65=CIRCLE('',#199,9.);
#66=CIRCLE('',#200,6.);
#67=CIRCLE('',#202,6.);
#68=CIRCLE('',#204,12.8);
#69=CIRCLE('',#205,12.8);
#70=CIRCLE('',#207,14.875);
#71=CIRCLE('',#208,15.875);
#72=CIRCLE('',#209,15.875);
#73=CIRCLE('',#211,15.875);
#74=CIRCLE('',#212,15.875);
#75=CIRCLE('',#214,12.8);
#76=CIRCLE('',#215,12.8);
#77=CIRCLE('',#217,6.89249248662002);
#78=CIRCLE('',#219,14.3);
#79=CIRCLE('',#220,14.3);
#80=CIRCLE('',#221,14.3);
#81=CIRCLE('',#224,14.3);
#82=VERTEX_POINT('',#293);
#83=VERTEX_POINT('',#295);
#84=VERTEX_POINT('',#299);
#85=VERTEX_POINT('',#303);
#86=VERTEX_POINT('',#304);
#87=VERTEX_POINT('',#308);
#88=VERTEX_POINT('',#310);
#89=VERTEX_POINT('',#312);
#90=VERTEX_POINT('',#316);
#91=VERTEX_POINT('',#317);
#92=VERTEX_POINT('',#322);
#93=VERTEX_POINT('',#323);
#94=VERTEX_POINT('',#327);
#95=VERTEX_POINT('',#331);
#96=VERTEX_POINT('',#333);
#97=VERTEX_POINT('',#339);
#98=EDGE_CURVE('',#82,#82,#65,.T.);
#99=EDGE_CURVE('',#82,#83,#51,.T.);
#100=EDGE_CURVE('',#83,#83,#66,.T.);
#101=EDGE_CURVE('',#83,#84,#52,.T.);
#102=EDGE_CURVE('',#84,#84,#67,.T.);
#103=EDGE_CURVE('',#85,#86,#68,.T.);
#104=EDGE_CURVE('',#86,#85,#69,.T.);
#105=EDGE_CURVE('',#87,#87,#70,.T.);
#106=EDGE_CURVE('',#87,#88,#53,.T.);
#107=EDGE_CURVE('',#88,#89,#71,.T.);
#108=EDGE_CURVE('',#89,#88,#72,.T.);
#109=EDGE_CURVE('',#90,#91,#73,.T.);
#110=EDGE_CURVE('',#91,#90,#74,.T.);
#111=EDGE_CURVE('',#91,#89,#54,.T.);
#112=EDGE_CURVE('',#92,#93,#75,.T.);
#113=EDGE_CURVE('',#93,#92,#76,.T.);
#114=EDGE_CURVE('',#94,#94,#77,.T.);
#115=EDGE_CURVE('',#94,#84,#55,.T.);
#116=EDGE_CURVE('',#94,#95,#78,.T.);
#117=EDGE_CURVE('',#95,#96,#79,.T.);
#118=EDGE_CURVE('',#96,#95,#80,.T.);
#119=EDGE_CURVE('',#93,#86,#56,.T.);
#120=EDGE_CURVE('',#97,#97,#81,.T.);
#121=EDGE_CURVE('',#95,#97,#57,.T.);
#122=ORIENTED_EDGE('',*,*,#98,.T.);
#123=ORIENTED_EDGE('',*,*,#99,.T.);
#124=ORIENTED_EDGE('',*,*,#100,.T.);
#125=ORIENTED_EDGE('',*,*,#99,.F.);
#126=ORIENTED_EDGE('',*,*,#100,.F.);
#127=ORIENTED_EDGE('',*,*,#101,.T.);
#128=ORIENTED_EDGE('',*,*,#102,.F.);
#129=ORIENTED_EDGE('',*,*,#101,.F.);
#130=ORIENTED_EDGE('',*,*,#103,.F.);
#131=ORIENTED_EDGE('',*,*,#104,.F.);
#132=ORIENTED_EDGE('',*,*,#98,.F.);
#133=ORIENTED_EDGE('',*,*,#105,.T.);
#134=ORIENTED_EDGE('',*,*,#106,.T.);
#135=ORIENTED_EDGE('',*,*,#107,.T.);
#136=ORIENTED_EDGE('',*,*,#108,.T.);
#137=ORIENTED_EDGE('',*,*,#106,.F.);
#138=ORIENTED_EDGE('',*,*,#109,.F.);
#139=ORIENTED_EDGE('',*,*,#110,.F.);
#140=ORIENTED_EDGE('',*,*,#111,.T.);
#141=ORIENTED_EDGE('',*,*,#107,.F.);
#142=ORIENTED_EDGE('',*,*,#108,.F.);
#143=ORIENTED_EDGE('',*,*,#111,.F.);
#144=ORIENTED_EDGE('',*,*,#105,.F.);
#145=ORIENTED_EDGE('',*,*,#112,.T.);
#146=ORIENTED_EDGE('',*,*,#113,.T.);
#147=ORIENTED_EDGE('',*,*,#114,.T.);
#148=ORIENTED_EDGE('',*,*,#115,.T.);
#149=ORIENTED_EDGE('',*,*,#102,.T.);
#150=ORIENTED_EDGE('',*,*,#115,.F.);
#151=ORIENTED_EDGE('',*,*,#114,.F.);
#152=ORIENTED_EDGE('',*,*,#116,.T.);
#153=ORIENTED_EDGE('',*,*,#117,.T.);
#154=ORIENTED_EDGE('',*,*,#118,.T.);
#155=ORIENTED_EDGE('',*,*,#116,.F.);
#156=ORIENTED_EDGE('',*,*,#112,.F.);
#157=ORIENTED_EDGE('',*,*,#113,.F.);
#158=ORIENTED_EDGE('',*,*,#119,.T.);
#159=ORIENTED_EDGE('',*,*,#104,.T.);
#160=ORIENTED_EDGE('',*,*,#103,.T.);
#161=ORIENTED_EDGE('',*,*,#119,.F.);
#162=ORIENTED_EDGE('',*,*,#109,.T.);
#163=ORIENTED_EDGE('',*,*,#110,.T.);
#164=ORIENTED_EDGE('',*,*,#120,.F.);
#165=ORIENTED_EDGE('',*,*,#118,.F.);
#166=ORIENTED_EDGE('',*,*,#117,.F.);
#167=ORIENTED_EDGE('',*,*,#121,.T.);
#168=ORIENTED_EDGE('',*,*,#120,.T.);
#169=ORIENTED_EDGE('',*,*,#121,.F.);
#170=CONICAL_SURFACE('',#198,7.5,0.785398163397449);
#171=CONICAL_SURFACE('',#206,15.375,0.785398163397449);
#172=CONICAL_SURFACE('',#216,6.44624624331001,1.01937576216831);
#173=ADVANCED_FACE('',(#26),#170,.F.);
#174=ADVANCED_FACE('',(#27),#22,.F.);
#175=ADVANCED_FACE('',(#28,#16),#19,.F.);
#176=ADVANCED_FACE('',(#29),#171,.T.);
#177=ADVANCED_FACE('',(#30),#23,.T.);
#178=ADVANCED_FACE('',(#31,#17),#20,.T.);
#179=ADVANCED_FACE('',(#32),#172,.F.);
#180=ADVANCED_FACE('',(#33),#15,.T.);
#181=ADVANCED_FACE('',(#34),#24,.F.);
#182=ADVANCED_FACE('',(#35,#18),#21,.T.);
#183=ADVANCED_FACE('',(#36),#25,.T.);
#184=CLOSED_SHELL('',(#173,#174,#175,#176,#177,#178,#179,#180,#181,#182,
#183));
#185=DERIVED_UNIT_ELEMENT(#187,1.);
#186=DERIVED_UNIT_ELEMENT(#350,3.);
#187=(
MASS_UNIT()
NAMED_UNIT(*)
SI_UNIT(.KILO.,.GRAM.)
);
#188=DERIVED_UNIT((#185,#186));
#189=MEASURE_REPRESENTATION_ITEM('density measure',
POSITIVE_RATIO_MEASURE(7850.),#188);
#190=PROPERTY_DEFINITION_REPRESENTATION(#195,#192);
#191=PROPERTY_DEFINITION_REPRESENTATION(#196,#193);
#192=REPRESENTATION('material name',(#194),#345);
#193=REPRESENTATION('density',(#189),#345);
#194=DESCRIPTIVE_REPRESENTATION_ITEM('Steel','Steel');
#195=PROPERTY_DEFINITION('material property','material name',#355);
#196=PROPERTY_DEFINITION('material property','density of part',#355);
#197=AXIS2_PLACEMENT_3D('placement',#291,#226,#227);
#198=AXIS2_PLACEMENT_3D('',#292,#228,#229);
#199=AXIS2_PLACEMENT_3D('',#294,#230,#231);
#200=AXIS2_PLACEMENT_3D('',#297,#233,#234);
#201=AXIS2_PLACEMENT_3D('',#298,#235,#236);
#202=AXIS2_PLACEMENT_3D('',#301,#238,#239);
#203=AXIS2_PLACEMENT_3D('',#302,#240,#241);
#204=AXIS2_PLACEMENT_3D('',#305,#242,#243);
#205=AXIS2_PLACEMENT_3D('',#306,#244,#245);
#206=AXIS2_PLACEMENT_3D('',#307,#246,#247);
#207=AXIS2_PLACEMENT_3D('',#309,#248,#249);
#208=AXIS2_PLACEMENT_3D('',#313,#251,#252);
#209=AXIS2_PLACEMENT_3D('',#314,#253,#254);
#210=AXIS2_PLACEMENT_3D('',#315,#255,#256);
#211=AXIS2_PLACEMENT_3D('',#318,#257,#258);
#212=AXIS2_PLACEMENT_3D('',#319,#259,#260);
#213=AXIS2_PLACEMENT_3D('',#321,#262,#263);
#214=AXIS2_PLACEMENT_3D('',#324,#264,#265);
#215=AXIS2_PLACEMENT_3D('',#325,#266,#267);
#216=AXIS2_PLACEMENT_3D('',#326,#268,#269);
#217=AXIS2_PLACEMENT_3D('',#328,#270,#271);
#218=AXIS2_PLACEMENT_3D('',#330,#273,#274);
#219=AXIS2_PLACEMENT_3D('',#332,#275,#276);
#220=AXIS2_PLACEMENT_3D('',#334,#277,#278);
#221=AXIS2_PLACEMENT_3D('',#335,#279,#280);
#222=AXIS2_PLACEMENT_3D('',#336,#281,#282);
#223=AXIS2_PLACEMENT_3D('',#338,#284,#285);
#224=AXIS2_PLACEMENT_3D('',#340,#286,#287);
#225=AXIS2_PLACEMENT_3D('',#341,#288,#289);
#226=DIRECTION('axis',(0.,0.,1.));
#227=DIRECTION('refdir',(1.,0.,0.));
#228=DIRECTION('center_axis',(0.,0.,-1.));
#229=DIRECTION('ref_axis',(1.,0.,0.));
#230=DIRECTION('center_axis',(0.,0.,-1.));
#231=DIRECTION('ref_axis',(1.,0.,0.));
#232=DIRECTION('',(0.707106781186548,-8.65956056235494E-17,0.707106781186547));
#233=DIRECTION('center_axis',(0.,0.,1.));
#234=DIRECTION('ref_axis',(1.,0.,0.));
#235=DIRECTION('center_axis',(0.,0.,1.));
#236=DIRECTION('ref_axis',(1.,0.,0.));
#237=DIRECTION('',(0.,0.,1.));
#238=DIRECTION('center_axis',(0.,0.,-1.));
#239=DIRECTION('ref_axis',(1.,0.,0.));
#240=DIRECTION('center_axis',(0.,0.,1.));
#241=DIRECTION('ref_axis',(1.,0.,0.));
#242=DIRECTION('center_axis',(0.,0.,1.));
#243=DIRECTION('ref_axis',(1.,0.,0.));
#244=DIRECTION('center_axis',(0.,0.,1.));
#245=DIRECTION('ref_axis',(1.,0.,0.));
#246=DIRECTION('center_axis',(0.,0.,1.));
#247=DIRECTION('ref_axis',(-1.,0.,0.));
#248=DIRECTION('center_axis',(0.,0.,1.));
#249=DIRECTION('ref_axis',(-1.,0.,0.));
#250=DIRECTION('',(0.707106781186548,-8.65956056235494E-17,0.707106781186547));
#251=DIRECTION('center_axis',(0.,0.,-1.));
#252=DIRECTION('ref_axis',(-1.,0.,0.));
#253=DIRECTION('center_axis',(0.,0.,-1.));
#254=DIRECTION('ref_axis',(-1.,0.,0.));
#255=DIRECTION('center_axis',(0.,0.,1.));
#256=DIRECTION('ref_axis',(1.,0.,0.));
#257=DIRECTION('center_axis',(0.,0.,1.));
#258=DIRECTION('ref_axis',(1.,0.,0.));
#259=DIRECTION('center_axis',(0.,0.,1.));
#260=DIRECTION('ref_axis',(1.,0.,0.));
#261=DIRECTION('',(0.,0.,-1.));
#262=DIRECTION('center_axis',(0.,0.,-1.));
#263=DIRECTION('ref_axis',(-1.,0.,0.));
#264=DIRECTION('center_axis',(0.,0.,1.));
#265=DIRECTION('ref_axis',(1.,0.,0.));
#266=DIRECTION('center_axis',(0.,0.,1.));
#267=DIRECTION('ref_axis',(1.,0.,0.));
#268=DIRECTION('center_axis',(1.85340359884696E-16,1.85340359884696E-16,
1.));
#269=DIRECTION('ref_axis',(1.,0.,0.));
#270=DIRECTION('center_axis',(0.,0.,1.));
#271=DIRECTION('ref_axis',(1.,0.,0.));
#272=DIRECTION('',(0.851781151122306,7.21370529351105E-18,-0.52389776731034));
#273=DIRECTION('center_axis',(6.12323399573677E-17,0.,1.));
#274=DIRECTION('ref_axis',(1.,0.,0.));
#275=DIRECTION('center_axis',(1.22464679914735E-16,-1.,0.));
#276=DIRECTION('ref_axis',(-1.,-1.22464679914735E-16,0.));
#277=DIRECTION('center_axis',(0.,0.,1.));
#278=DIRECTION('ref_axis',(1.,0.,0.));
#279=DIRECTION('center_axis',(0.,0.,1.));
#280=DIRECTION('ref_axis',(1.,0.,0.));
#281=DIRECTION('center_axis',(0.,0.,1.));
#282=DIRECTION('ref_axis',(1.,0.,0.));
#283=DIRECTION('',(0.,0.,1.));
#284=DIRECTION('center_axis',(0.,0.,1.));
#285=DIRECTION('ref_axis',(1.,0.,0.));
#286=DIRECTION('center_axis',(0.,0.,1.));
#287=DIRECTION('ref_axis',(1.,0.,0.));
#288=DIRECTION('center_axis',(0.,0.,1.));
#289=DIRECTION('ref_axis',(1.,0.,0.));
#290=DIRECTION('',(0.,0.,-1.));
#291=CARTESIAN_POINT('',(0.,0.,0.));
#292=CARTESIAN_POINT('Origin',(0.,0.,61.5));
#293=CARTESIAN_POINT('',(-9.,1.10218211923262E-15,60.));
#294=CARTESIAN_POINT('Origin',(0.,0.,60.));
#295=CARTESIAN_POINT('',(-6.,-7.34788079488412E-16,63.));
#296=CARTESIAN_POINT('',(-7.5,9.18485099360515E-16,61.5));
#297=CARTESIAN_POINT('Origin',(0.,0.,63.));
#298=CARTESIAN_POINT('Origin',(0.,0.,37.5));
#299=CARTESIAN_POINT('',(-6.,7.34788079488412E-16,71.9803697944242));
#300=CARTESIAN_POINT('',(-6.,-7.34788079488412E-16,37.5));
#301=CARTESIAN_POINT('Origin',(0.,0.,71.9803697944242));
#302=CARTESIAN_POINT('Origin',(0.,0.,60.));
#303=CARTESIAN_POINT('',(12.8,0.,60.));
#304=CARTESIAN_POINT('',(-12.8,-1.56754790290861E-15,60.));
#305=CARTESIAN_POINT('Origin',(0.,0.,60.));
#306=CARTESIAN_POINT('Origin',(0.,0.,60.));
#307=CARTESIAN_POINT('Origin',(0.,0.,0.5));
#308=CARTESIAN_POINT('',(14.875,1.82166211373169E-15,0.));
#309=CARTESIAN_POINT('Origin',(0.,0.,0.));
#310=CARTESIAN_POINT('',(15.875,-1.94412679364642E-15,1.));
#311=CARTESIAN_POINT('',(15.375,-1.88289445368906E-15,0.5));
#312=CARTESIAN_POINT('',(-15.875,-1.94412679364642E-15,1.));
#313=CARTESIAN_POINT('Origin',(0.,0.,1.));
#314=CARTESIAN_POINT('Origin',(0.,0.,1.));
#315=CARTESIAN_POINT('Origin',(0.,0.,2.5));
#316=CARTESIAN_POINT('',(15.875,0.,5.));
#317=CARTESIAN_POINT('',(-15.875,-1.94412679364642E-15,5.));
#318=CARTESIAN_POINT('Origin',(0.,0.,5.));
#319=CARTESIAN_POINT('Origin',(0.,0.,5.));
#320=CARTESIAN_POINT('',(-15.875,-1.94412679364642E-15,2.5));
#321=CARTESIAN_POINT('Origin',(0.,0.,0.));
#322=CARTESIAN_POINT('',(12.8,0.,0.));
#323=CARTESIAN_POINT('',(-12.8,-1.56754790290861E-15,0.));
#324=CARTESIAN_POINT('Origin',(0.,0.,0.));
#325=CARTESIAN_POINT('Origin',(0.,0.,0.));
#326=CARTESIAN_POINT('Origin',(5.08701592528084E-17,5.08701592528084E-17,
72.254838665017));
#327=CARTESIAN_POINT('',(-6.89249248662002,-7.42346567683023E-16,72.5293075356097));
#328=CARTESIAN_POINT('Origin',(1.01740318505617E-16,1.01740318505617E-16,
72.5293075356097));
#329=CARTESIAN_POINT('',(-6.44624624331001,-7.38567323585717E-16,72.254838665017));
#330=CARTESIAN_POINT('Origin',(-2.22044604925031E-15,-2.22044604925031E-15,
60.));
#331=CARTESIAN_POINT('',(-14.3,-3.97169097203103E-15,60.));
#332=CARTESIAN_POINT('Origin',(-2.22044604925031E-15,-2.22044604925031E-15,
60.));
#333=CARTESIAN_POINT('',(14.3,0.,60.));
#334=CARTESIAN_POINT('Origin',(0.,0.,60.));
#335=CARTESIAN_POINT('Origin',(0.,0.,60.));
#336=CARTESIAN_POINT('Origin',(0.,0.,30.));
#337=CARTESIAN_POINT('',(-12.8,-1.56754790290861E-15,30.));
#338=CARTESIAN_POINT('Origin',(0.,0.,5.));
#339=CARTESIAN_POINT('',(-14.3,-1.75124492278072E-15,5.));
#340=CARTESIAN_POINT('Origin',(0.,0.,5.));
#341=CARTESIAN_POINT('Origin',(0.,0.,30.));
#342=CARTESIAN_POINT('',(-14.3,-1.75124492278072E-15,30.));
#343=UNCERTAINTY_MEASURE_WITH_UNIT(LENGTH_MEASURE(0.01),#349,
'DISTANCE_ACCURACY_VALUE',
'Maximum model space distance between geometric entities at asserted c
onnectivities');
#344=UNCERTAINTY_MEASURE_WITH_UNIT(LENGTH_MEASURE(0.01),#349,
'DISTANCE_ACCURACY_VALUE',
'Maximum model space distance between geometric entities at asserted c
onnectivities');
#345=(
GEOMETRIC_REPRESENTATION_CONTEXT(3)
GLOBAL_UNCERTAINTY_ASSIGNED_CONTEXT((#343))
GLOBAL_UNIT_ASSIGNED_CONTEXT((#349,#348,#347))
REPRESENTATION_CONTEXT('','3D')
);
#346=(
GEOMETRIC_REPRESENTATION_CONTEXT(3)
GLOBAL_UNCERTAINTY_ASSIGNED_CONTEXT((#344))
GLOBAL_UNIT_ASSIGNED_CONTEXT((#349,#348,#347))
REPRESENTATION_CONTEXT('','3D')
);
#347=(
NAMED_UNIT(*)
SI_UNIT($,.STERADIAN.)
SOLID_ANGLE_UNIT()
);
#348=(
NAMED_UNIT(*)
PLANE_ANGLE_UNIT()
SI_UNIT($,.RADIAN.)
);
#349=(
LENGTH_UNIT()
NAMED_UNIT(*)
SI_UNIT(.MILLI.,.METRE.)
);
#350=(
LENGTH_UNIT()
NAMED_UNIT(*)
SI_UNIT($,.METRE.)
);
#351=SHAPE_DEFINITION_REPRESENTATION(#352,#353);
#352=PRODUCT_DEFINITION_SHAPE('',$,#355);
#353=SHAPE_REPRESENTATION('',(#197),#345);
#354=PRODUCT_DEFINITION_CONTEXT('part definition',#359,'design');
#355=PRODUCT_DEFINITION('Joiner1.25_1','Joiner1.25_1 v3',#356,#354);
#356=PRODUCT_DEFINITION_FORMATION('',$,#361);
#357=PRODUCT_RELATED_PRODUCT_CATEGORY('Joiner1.25_1 v3',
'Joiner1.25_1 v3',(#361));
#358=APPLICATION_PROTOCOL_DEFINITION('international standard',
'automotive_design',2009,#359);
#359=APPLICATION_CONTEXT(
'Core Data for Automotive Mechanical Design Process');
#360=PRODUCT_CONTEXT('part definition',#359,'mechanical');
#361=PRODUCT('Joiner1.25_1','Joiner1.25_1 v3',$,(#360));
#362=PRESENTATION_STYLE_ASSIGNMENT((#363));
#363=SURFACE_STYLE_USAGE(.BOTH.,#364);
#364=SURFACE_SIDE_STYLE('',(#365));
#365=SURFACE_STYLE_FILL_AREA(#366);
#366=FILL_AREA_STYLE('Steel - Satin',(#367));
#367=FILL_AREA_STYLE_COLOUR('Steel - Satin',#368);
#368=COLOUR_RGB('Steel - Satin',0.627450980392157,0.627450980392157,0.627450980392157);
ENDSEC;
END-ISO-10303-21;
