ISO-10303-21;
HEADER;
/* Generated by software containing ST-Developer
 * from STEP Tools, Inc. (www.steptools.com) 
 */

FILE_DESCRIPTION(
/* description */ (''),
/* implementation_level */ '2;1');

FILE_NAME(
/* name */ '/Users/deuce/Desktop/JOINER35_30eye v4.step',
/* time_stamp */ '2020-12-23T16:52:11+11:00',
/* author */ (''),
/* organization */ (''),
/* preprocessor_version */ 'ST-DEVELOPER v18.1',
/* originating_system */ 'Autodesk Translation Framework v9.3.0.1241',
/* authorisation */ '');

FILE_SCHEMA (('AUTOMOTIVE_DESIGN { 1 0 10303 214 3 1 1 }'));
ENDSEC;

DATA;
#10=MECHANICAL_DESIGN_GEOMETRIC_PRESENTATION_REPRESENTATION('',(#13),#461);
#11=SHAPE_REPRESENTATION_RELATIONSHIP('SRR','None',#468,#12);
#12=ADVANCED_BREP_SHAPE_REPRESENTATION('',(#14),#460);
#13=STYLED_ITEM('',(#477),#14);
#14=MANIFOLD_SOLID_BREP('Body1',#257);
#15=SPHERICAL_SURFACE('',#299,15.75);
#16=FACE_BOUND('',#51,.T.);
#17=FACE_BOUND('',#52,.T.);
#18=FACE_BOUND('',#55,.T.);
#19=FACE_BOUND('',#56,.T.);
#20=FACE_BOUND('',#64,.T.);
#21=PLANE('',#276);
#22=PLANE('',#282);
#23=PLANE('',#287);
#24=PLANE('',#288);
#25=PLANE('',#295);
#26=CYLINDRICAL_SURFACE('',#274,4.75);
#27=CYLINDRICAL_SURFACE('',#286,17.5);
#28=CYLINDRICAL_SURFACE('',#289,17.5);
#29=CYLINDRICAL_SURFACE('',#293,7.);
#30=CYLINDRICAL_SURFACE('',#302,15.15);
#31=CYLINDRICAL_SURFACE('',#303,15.75);
#32=FACE_OUTER_BOUND('',#48,.T.);
#33=FACE_OUTER_BOUND('',#49,.T.);
#34=FACE_OUTER_BOUND('',#50,.T.);
#35=FACE_OUTER_BOUND('',#53,.T.);
#36=FACE_OUTER_BOUND('',#54,.T.);
#37=FACE_OUTER_BOUND('',#57,.T.);
#38=FACE_OUTER_BOUND('',#58,.T.);
#39=FACE_OUTER_BOUND('',#59,.T.);
#40=FACE_OUTER_BOUND('',#60,.T.);
#41=FACE_OUTER_BOUND('',#61,.T.);
#42=FACE_OUTER_BOUND('',#62,.T.);
#43=FACE_OUTER_BOUND('',#63,.T.);
#44=FACE_OUTER_BOUND('',#65,.T.);
#45=FACE_OUTER_BOUND('',#66,.T.);
#46=FACE_OUTER_BOUND('',#67,.T.);
#47=FACE_OUTER_BOUND('',#68,.T.);
#48=EDGE_LOOP('',(#171,#172,#173,#174));
#49=EDGE_LOOP('',(#175,#176,#177,#178));
#50=EDGE_LOOP('',(#179,#180,#181,#182));
#51=EDGE_LOOP('',(#183));
#52=EDGE_LOOP('',(#184));
#53=EDGE_LOOP('',(#185,#186,#187,#188));
#54=EDGE_LOOP('',(#189,#190,#191,#192));
#55=EDGE_LOOP('',(#193));
#56=EDGE_LOOP('',(#194));
#57=EDGE_LOOP('',(#195,#196,#197,#198));
#58=EDGE_LOOP('',(#199,#200,#201,#202));
#59=EDGE_LOOP('',(#203,#204,#205,#206));
#60=EDGE_LOOP('',(#207,#208,#209,#210));
#61=EDGE_LOOP('',(#211,#212,#213,#214));
#62=EDGE_LOOP('',(#215,#216,#217,#218));
#63=EDGE_LOOP('',(#219));
#64=EDGE_LOOP('',(#220));
#65=EDGE_LOOP('',(#221,#222,#223,#224));
#66=EDGE_LOOP('',(#225,#226,#227,#228));
#67=EDGE_LOOP('',(#229,#230,#231,#232));
#68=EDGE_LOOP('',(#233,#234,#235,#236));
#69=LINE('',#393,#85);
#70=LINE('',#398,#86);
#71=LINE('',#404,#87);
#72=LINE('',#407,#88);
#73=LINE('',#413,#89);
#74=LINE('',#419,#90);
#75=LINE('',#422,#91);
#76=LINE('',#426,#92);
#77=LINE('',#427,#93);
#78=LINE('',#429,#94);
#79=LINE('',#431,#95);
#80=LINE('',#437,#96);
#81=LINE('',#441,#97);
#82=LINE('',#449,#98);
#83=LINE('',#455,#99);
#84=LINE('',#457,#100);
#85=VECTOR('',#310,5.25);
#86=VECTOR('',#317,4.75);
#87=VECTOR('',#322,10.);
#88=VECTOR('',#325,10.);
#89=VECTOR('',#332,5.25);
#90=VECTOR('',#337,10.);
#91=VECTOR('',#340,10.);
#92=VECTOR('',#345,10.);
#93=VECTOR('',#346,10.);
#94=VECTOR('',#349,10.);
#95=VECTOR('',#352,10.);
#96=VECTOR('',#359,10.);
#97=VECTOR('',#364,7.);
#98=VECTOR('',#375,7.44062277683768);
#99=VECTOR('',#384,15.15);
#100=VECTOR('',#387,15.75);
#101=CIRCLE('',#272,5.75);
#102=CIRCLE('',#273,4.75);
#103=CIRCLE('',#275,4.75);
#104=CIRCLE('',#277,17.5);
#105=CIRCLE('',#278,17.5);
#106=CIRCLE('',#279,15.15);
#107=CIRCLE('',#281,5.75);
#108=CIRCLE('',#283,17.5);
#109=CIRCLE('',#284,17.5);
#110=CIRCLE('',#285,15.75);
#111=CIRCLE('',#291,13.);
#112=CIRCLE('',#292,7.);
#113=CIRCLE('',#294,7.);
#114=CIRCLE('',#296,15.15);
#115=CIRCLE('',#298,7.88124555367537);
#116=CIRCLE('',#300,15.75);
#117=CIRCLE('',#301,15.75);
#118=VERTEX_POINT('',#390);
#119=VERTEX_POINT('',#392);
#120=VERTEX_POINT('',#396);
#121=VERTEX_POINT('',#400);
#122=VERTEX_POINT('',#401);
#123=VERTEX_POINT('',#403);
#124=VERTEX_POINT('',#405);
#125=VERTEX_POINT('',#408);
#126=VERTEX_POINT('',#411);
#127=VERTEX_POINT('',#415);
#128=VERTEX_POINT('',#416);
#129=VERTEX_POINT('',#418);
#130=VERTEX_POINT('',#420);
#131=VERTEX_POINT('',#423);
#132=VERTEX_POINT('',#434);
#133=VERTEX_POINT('',#436);
#134=VERTEX_POINT('',#440);
#135=VERTEX_POINT('',#444);
#136=VERTEX_POINT('',#447);
#137=VERTEX_POINT('',#451);
#138=EDGE_CURVE('',#118,#118,#101,.T.);
#139=EDGE_CURVE('',#118,#119,#69,.T.);
#140=EDGE_CURVE('',#119,#119,#102,.T.);
#141=EDGE_CURVE('',#120,#120,#103,.T.);
#142=EDGE_CURVE('',#120,#119,#70,.T.);
#143=EDGE_CURVE('',#121,#122,#104,.T.);
#144=EDGE_CURVE('',#122,#123,#71,.T.);
#145=EDGE_CURVE('',#123,#124,#105,.T.);
#146=EDGE_CURVE('',#121,#124,#72,.T.);
#147=EDGE_CURVE('',#125,#125,#106,.T.);
#148=EDGE_CURVE('',#126,#126,#107,.T.);
#149=EDGE_CURVE('',#126,#120,#73,.T.);
#150=EDGE_CURVE('',#127,#128,#108,.T.);
#151=EDGE_CURVE('',#128,#129,#74,.T.);
#152=EDGE_CURVE('',#129,#130,#109,.T.);
#153=EDGE_CURVE('',#130,#127,#75,.T.);
#154=EDGE_CURVE('',#131,#131,#110,.T.);
#155=EDGE_CURVE('',#123,#130,#76,.T.);
#156=EDGE_CURVE('',#124,#129,#77,.T.);
#157=EDGE_CURVE('',#121,#128,#78,.T.);
#158=EDGE_CURVE('',#122,#127,#79,.T.);
#159=EDGE_CURVE('',#132,#132,#111,.T.);
#160=EDGE_CURVE('',#132,#133,#80,.T.);
#161=EDGE_CURVE('',#133,#133,#112,.T.);
#162=EDGE_CURVE('',#133,#134,#81,.T.);
#163=EDGE_CURVE('',#134,#134,#113,.T.);
#164=EDGE_CURVE('',#135,#135,#114,.T.);
#165=EDGE_CURVE('',#136,#136,#115,.T.);
#166=EDGE_CURVE('',#136,#134,#82,.T.);
#167=EDGE_CURVE('',#136,#137,#116,.T.);
#168=EDGE_CURVE('',#137,#137,#117,.T.);
#169=EDGE_CURVE('',#125,#135,#83,.T.);
#170=EDGE_CURVE('',#137,#131,#84,.T.);
#171=ORIENTED_EDGE('',*,*,#138,.T.);
#172=ORIENTED_EDGE('',*,*,#139,.T.);
#173=ORIENTED_EDGE('',*,*,#140,.T.);
#174=ORIENTED_EDGE('',*,*,#139,.F.);
#175=ORIENTED_EDGE('',*,*,#141,.F.);
#176=ORIENTED_EDGE('',*,*,#142,.T.);
#177=ORIENTED_EDGE('',*,*,#140,.F.);
#178=ORIENTED_EDGE('',*,*,#142,.F.);
#179=ORIENTED_EDGE('',*,*,#143,.T.);
#180=ORIENTED_EDGE('',*,*,#144,.T.);
#181=ORIENTED_EDGE('',*,*,#145,.T.);
#182=ORIENTED_EDGE('',*,*,#146,.F.);
#183=ORIENTED_EDGE('',*,*,#147,.T.);
#184=ORIENTED_EDGE('',*,*,#138,.F.);
#185=ORIENTED_EDGE('',*,*,#148,.T.);
#186=ORIENTED_EDGE('',*,*,#149,.T.);
#187=ORIENTED_EDGE('',*,*,#141,.T.);
#188=ORIENTED_EDGE('',*,*,#149,.F.);
#189=ORIENTED_EDGE('',*,*,#150,.T.);
#190=ORIENTED_EDGE('',*,*,#151,.T.);
#191=ORIENTED_EDGE('',*,*,#152,.T.);
#192=ORIENTED_EDGE('',*,*,#153,.T.);
#193=ORIENTED_EDGE('',*,*,#154,.F.);
#194=ORIENTED_EDGE('',*,*,#148,.F.);
#195=ORIENTED_EDGE('',*,*,#145,.F.);
#196=ORIENTED_EDGE('',*,*,#155,.T.);
#197=ORIENTED_EDGE('',*,*,#152,.F.);
#198=ORIENTED_EDGE('',*,*,#156,.F.);
#199=ORIENTED_EDGE('',*,*,#146,.T.);
#200=ORIENTED_EDGE('',*,*,#156,.T.);
#201=ORIENTED_EDGE('',*,*,#151,.F.);
#202=ORIENTED_EDGE('',*,*,#157,.F.);
#203=ORIENTED_EDGE('',*,*,#144,.F.);
#204=ORIENTED_EDGE('',*,*,#158,.T.);
#205=ORIENTED_EDGE('',*,*,#153,.F.);
#206=ORIENTED_EDGE('',*,*,#155,.F.);
#207=ORIENTED_EDGE('',*,*,#158,.F.);
#208=ORIENTED_EDGE('',*,*,#143,.F.);
#209=ORIENTED_EDGE('',*,*,#157,.T.);
#210=ORIENTED_EDGE('',*,*,#150,.F.);
#211=ORIENTED_EDGE('',*,*,#159,.T.);
#212=ORIENTED_EDGE('',*,*,#160,.T.);
#213=ORIENTED_EDGE('',*,*,#161,.T.);
#214=ORIENTED_EDGE('',*,*,#160,.F.);
#215=ORIENTED_EDGE('',*,*,#161,.F.);
#216=ORIENTED_EDGE('',*,*,#162,.T.);
#217=ORIENTED_EDGE('',*,*,#163,.F.);
#218=ORIENTED_EDGE('',*,*,#162,.F.);
#219=ORIENTED_EDGE('',*,*,#164,.F.);
#220=ORIENTED_EDGE('',*,*,#159,.F.);
#221=ORIENTED_EDGE('',*,*,#165,.T.);
#222=ORIENTED_EDGE('',*,*,#166,.T.);
#223=ORIENTED_EDGE('',*,*,#163,.T.);
#224=ORIENTED_EDGE('',*,*,#166,.F.);
#225=ORIENTED_EDGE('',*,*,#165,.F.);
#226=ORIENTED_EDGE('',*,*,#167,.T.);
#227=ORIENTED_EDGE('',*,*,#168,.T.);
#228=ORIENTED_EDGE('',*,*,#167,.F.);
#229=ORIENTED_EDGE('',*,*,#147,.F.);
#230=ORIENTED_EDGE('',*,*,#169,.T.);
#231=ORIENTED_EDGE('',*,*,#164,.T.);
#232=ORIENTED_EDGE('',*,*,#169,.F.);
#233=ORIENTED_EDGE('',*,*,#168,.F.);
#234=ORIENTED_EDGE('',*,*,#170,.T.);
#235=ORIENTED_EDGE('',*,*,#154,.T.);
#236=ORIENTED_EDGE('',*,*,#170,.F.);
#237=CONICAL_SURFACE('',#271,5.25,0.785398163397449);
#238=CONICAL_SURFACE('',#280,5.25,0.785398163397449);
#239=CONICAL_SURFACE('',#290,10.,0.785398163397449);
#240=CONICAL_SURFACE('',#297,7.44062277683768,1.03155084248643);
#241=ADVANCED_FACE('',(#32),#237,.F.);
#242=ADVANCED_FACE('',(#33),#26,.F.);
#243=ADVANCED_FACE('',(#34,#16,#17),#21,.T.);
#244=ADVANCED_FACE('',(#35),#238,.F.);
#245=ADVANCED_FACE('',(#36,#18,#19),#22,.T.);
#246=ADVANCED_FACE('',(#37),#27,.T.);
#247=ADVANCED_FACE('',(#38),#23,.T.);
#248=ADVANCED_FACE('',(#39),#24,.T.);
#249=ADVANCED_FACE('',(#40),#28,.T.);
#250=ADVANCED_FACE('',(#41),#239,.F.);
#251=ADVANCED_FACE('',(#42),#29,.F.);
#252=ADVANCED_FACE('',(#43,#20),#25,.F.);
#253=ADVANCED_FACE('',(#44),#240,.F.);
#254=ADVANCED_FACE('',(#45),#15,.T.);
#255=ADVANCED_FACE('',(#46),#30,.F.);
#256=ADVANCED_FACE('',(#47),#31,.T.);
#257=CLOSED_SHELL('',(#241,#242,#243,#244,#245,#246,#247,#248,#249,#250,
#251,#252,#253,#254,#255,#256));
#258=DERIVED_UNIT_ELEMENT(#260,1.);
#259=DERIVED_UNIT_ELEMENT(#463,3.);
#260=(
MASS_UNIT()
NAMED_UNIT(*)
SI_UNIT(.KILO.,.GRAM.)
);
#261=DERIVED_UNIT((#258,#259));
#262=MEASURE_REPRESENTATION_ITEM('density measure',
POSITIVE_RATIO_MEASURE(7850.),#261);
#263=PROPERTY_DEFINITION_REPRESENTATION(#268,#265);
#264=PROPERTY_DEFINITION_REPRESENTATION(#269,#266);
#265=REPRESENTATION('material name',(#267),#460);
#266=REPRESENTATION('density',(#262),#460);
#267=DESCRIPTIVE_REPRESENTATION_ITEM('Steel','Steel');
#268=PROPERTY_DEFINITION('material property','material name',#470);
#269=PROPERTY_DEFINITION('material property','density of part',#470);
#270=AXIS2_PLACEMENT_3D('placement',#388,#304,#305);
#271=AXIS2_PLACEMENT_3D('',#389,#306,#307);
#272=AXIS2_PLACEMENT_3D('',#391,#308,#309);
#273=AXIS2_PLACEMENT_3D('',#394,#311,#312);
#274=AXIS2_PLACEMENT_3D('',#395,#313,#314);
#275=AXIS2_PLACEMENT_3D('',#397,#315,#316);
#276=AXIS2_PLACEMENT_3D('',#399,#318,#319);
#277=AXIS2_PLACEMENT_3D('',#402,#320,#321);
#278=AXIS2_PLACEMENT_3D('',#406,#323,#324);
#279=AXIS2_PLACEMENT_3D('',#409,#326,#327);
#280=AXIS2_PLACEMENT_3D('',#410,#328,#329);
#281=AXIS2_PLACEMENT_3D('',#412,#330,#331);
#282=AXIS2_PLACEMENT_3D('',#414,#333,#334);
#283=AXIS2_PLACEMENT_3D('',#417,#335,#336);
#284=AXIS2_PLACEMENT_3D('',#421,#338,#339);
#285=AXIS2_PLACEMENT_3D('',#424,#341,#342);
#286=AXIS2_PLACEMENT_3D('',#425,#343,#344);
#287=AXIS2_PLACEMENT_3D('',#428,#347,#348);
#288=AXIS2_PLACEMENT_3D('',#430,#350,#351);
#289=AXIS2_PLACEMENT_3D('',#432,#353,#354);
#290=AXIS2_PLACEMENT_3D('',#433,#355,#356);
#291=AXIS2_PLACEMENT_3D('',#435,#357,#358);
#292=AXIS2_PLACEMENT_3D('',#438,#360,#361);
#293=AXIS2_PLACEMENT_3D('',#439,#362,#363);
#294=AXIS2_PLACEMENT_3D('',#442,#365,#366);
#295=AXIS2_PLACEMENT_3D('',#443,#367,#368);
#296=AXIS2_PLACEMENT_3D('',#445,#369,#370);
#297=AXIS2_PLACEMENT_3D('',#446,#371,#372);
#298=AXIS2_PLACEMENT_3D('',#448,#373,#374);
#299=AXIS2_PLACEMENT_3D('',#450,#376,#377);
#300=AXIS2_PLACEMENT_3D('',#452,#378,#379);
#301=AXIS2_PLACEMENT_3D('',#453,#380,#381);
#302=AXIS2_PLACEMENT_3D('',#454,#382,#383);
#303=AXIS2_PLACEMENT_3D('',#456,#385,#386);
#304=DIRECTION('axis',(0.,0.,1.));
#305=DIRECTION('refdir',(1.,0.,0.));
#306=DIRECTION('center_axis',(0.,0.,-1.));
#307=DIRECTION('ref_axis',(-1.,0.,0.));
#308=DIRECTION('center_axis',(0.,0.,-1.));
#309=DIRECTION('ref_axis',(-1.,0.,0.));
#310=DIRECTION('',(-0.707106781186548,8.65956056235494E-17,0.707106781186547));
#311=DIRECTION('center_axis',(0.,0.,1.));
#312=DIRECTION('ref_axis',(-1.,0.,0.));
#313=DIRECTION('center_axis',(0.,0.,1.));
#314=DIRECTION('ref_axis',(-1.,0.,0.));
#315=DIRECTION('center_axis',(0.,0.,-1.));
#316=DIRECTION('ref_axis',(-1.,0.,0.));
#317=DIRECTION('',(0.,0.,-1.));
#318=DIRECTION('center_axis',(0.,0.,-1.));
#319=DIRECTION('ref_axis',(-1.,0.,0.));
#320=DIRECTION('center_axis',(0.,0.,-1.));
#321=DIRECTION('ref_axis',(1.,0.,0.));
#322=DIRECTION('',(0.,1.,0.));
#323=DIRECTION('center_axis',(0.,0.,-1.));
#324=DIRECTION('ref_axis',(-1.,0.,0.));
#325=DIRECTION('',(0.,1.,0.));
#326=DIRECTION('center_axis',(0.,0.,1.));
#327=DIRECTION('ref_axis',(1.,0.,0.));
#328=DIRECTION('center_axis',(0.,0.,1.));
#329=DIRECTION('ref_axis',(-1.,0.,0.));
#330=DIRECTION('center_axis',(0.,0.,1.));
#331=DIRECTION('ref_axis',(-1.,0.,0.));
#332=DIRECTION('',(-0.707106781186548,-8.65956056235494E-17,-0.707106781186547));
#333=DIRECTION('center_axis',(0.,0.,1.));
#334=DIRECTION('ref_axis',(1.,0.,0.));
#335=DIRECTION('center_axis',(0.,0.,1.));
#336=DIRECTION('ref_axis',(1.,0.,0.));
#337=DIRECTION('',(0.,1.,0.));
#338=DIRECTION('center_axis',(0.,0.,1.));
#339=DIRECTION('ref_axis',(-1.,0.,0.));
#340=DIRECTION('',(0.,-1.,0.));
#341=DIRECTION('center_axis',(0.,0.,1.));
#342=DIRECTION('ref_axis',(1.,0.,0.));
#343=DIRECTION('center_axis',(0.,0.,1.));
#344=DIRECTION('ref_axis',(-1.,0.,0.));
#345=DIRECTION('',(0.,0.,1.));
#346=DIRECTION('',(0.,0.,1.));
#347=DIRECTION('center_axis',(1.,0.,0.));
#348=DIRECTION('ref_axis',(0.,1.,0.));
#349=DIRECTION('',(0.,0.,1.));
#350=DIRECTION('center_axis',(-1.,0.,0.));
#351=DIRECTION('ref_axis',(0.,-1.,0.));
#352=DIRECTION('',(0.,0.,1.));
#353=DIRECTION('center_axis',(0.,0.,1.));
#354=DIRECTION('ref_axis',(1.,0.,0.));
#355=DIRECTION('center_axis',(0.,0.,-1.));
#356=DIRECTION('ref_axis',(1.,0.,0.));
#357=DIRECTION('center_axis',(0.,0.,-1.));
#358=DIRECTION('ref_axis',(1.,0.,0.));
#359=DIRECTION('',(0.707106781186548,-8.65956056235494E-17,0.707106781186547));
#360=DIRECTION('center_axis',(0.,0.,1.));
#361=DIRECTION('ref_axis',(1.,0.,0.));
#362=DIRECTION('center_axis',(0.,0.,1.));
#363=DIRECTION('ref_axis',(1.,0.,0.));
#364=DIRECTION('',(0.,0.,1.));
#365=DIRECTION('center_axis',(0.,0.,-1.));
#366=DIRECTION('ref_axis',(1.,0.,0.));
#367=DIRECTION('center_axis',(0.,0.,1.));
#368=DIRECTION('ref_axis',(1.,0.,0.));
#369=DIRECTION('center_axis',(0.,0.,1.));
#370=DIRECTION('ref_axis',(1.,0.,0.));
#371=DIRECTION('center_axis',(1.69383960560092E-16,1.69383960560092E-16,
1.));
#372=DIRECTION('ref_axis',(1.,0.,0.));
#373=DIRECTION('center_axis',(0.,0.,1.));
#374=DIRECTION('ref_axis',(1.,0.,0.));
#375=DIRECTION('',(0.85809636085614,1.81097480332378E-17,-0.513488690708422));
#376=DIRECTION('center_axis',(6.12323399573677E-17,0.,1.));
#377=DIRECTION('ref_axis',(1.,0.,0.));
#378=DIRECTION('center_axis',(1.22464679914735E-16,-1.,0.));
#379=DIRECTION('ref_axis',(-1.,-1.22464679914735E-16,0.));
#380=DIRECTION('center_axis',(0.,0.,1.));
#381=DIRECTION('ref_axis',(1.,0.,0.));
#382=DIRECTION('center_axis',(0.,0.,1.));
#383=DIRECTION('ref_axis',(1.,0.,0.));
#384=DIRECTION('',(0.,0.,1.));
#385=DIRECTION('center_axis',(0.,0.,1.));
#386=DIRECTION('ref_axis',(1.,0.,0.));
#387=DIRECTION('',(0.,0.,-1.));
#388=CARTESIAN_POINT('',(0.,0.,0.));
#389=CARTESIAN_POINT('Origin',(0.,22.5,0.5));
#390=CARTESIAN_POINT('',(5.75,22.5,0.));
#391=CARTESIAN_POINT('Origin',(0.,22.5,0.));
#392=CARTESIAN_POINT('',(4.75,22.5,1.));
#393=CARTESIAN_POINT('',(5.25,22.5,0.5));
#394=CARTESIAN_POINT('Origin',(0.,22.5,1.));
#395=CARTESIAN_POINT('Origin',(0.,22.5,0.));
#396=CARTESIAN_POINT('',(4.75,22.5,5.5));
#397=CARTESIAN_POINT('Origin',(0.,22.5,5.5));
#398=CARTESIAN_POINT('',(4.75,22.5,0.));
#399=CARTESIAN_POINT('Origin',(0.,0.,0.));
#400=CARTESIAN_POINT('',(17.5,0.,0.));
#401=CARTESIAN_POINT('',(-17.5,0.,0.));
#402=CARTESIAN_POINT('Origin',(0.,0.,0.));
#403=CARTESIAN_POINT('',(-17.5,14.5,0.));
#404=CARTESIAN_POINT('',(-17.5,0.,0.));
#405=CARTESIAN_POINT('',(17.5,14.5,0.));
#406=CARTESIAN_POINT('Origin',(0.,14.5,0.));
#407=CARTESIAN_POINT('',(17.5,0.,0.));
#408=CARTESIAN_POINT('',(-15.15,-1.85533990070824E-15,0.));
#409=CARTESIAN_POINT('Origin',(0.,0.,0.));
#410=CARTESIAN_POINT('Origin',(0.,22.5,6.));
#411=CARTESIAN_POINT('',(5.75,22.5,6.5));
#412=CARTESIAN_POINT('Origin',(0.,22.5,6.5));
#413=CARTESIAN_POINT('',(5.25,22.5,6.));
#414=CARTESIAN_POINT('Origin',(0.,0.,6.5));
#415=CARTESIAN_POINT('',(-17.5,0.,6.5));
#416=CARTESIAN_POINT('',(17.5,0.,6.5));
#417=CARTESIAN_POINT('Origin',(0.,0.,6.5));
#418=CARTESIAN_POINT('',(17.5,14.5,6.5));
#419=CARTESIAN_POINT('',(17.5,0.,6.5));
#420=CARTESIAN_POINT('',(-17.5,14.5,6.5));
#421=CARTESIAN_POINT('Origin',(0.,14.5,6.5));
#422=CARTESIAN_POINT('',(-17.5,0.,6.5));
#423=CARTESIAN_POINT('',(-15.75,-1.92881870865708E-15,6.5));
#424=CARTESIAN_POINT('Origin',(0.,0.,6.5));
#425=CARTESIAN_POINT('Origin',(0.,14.5,0.));
#426=CARTESIAN_POINT('',(-17.5,14.5,0.));
#427=CARTESIAN_POINT('',(17.5,14.5,0.));
#428=CARTESIAN_POINT('Origin',(17.5,0.,0.));
#429=CARTESIAN_POINT('',(17.5,0.,3.25));
#430=CARTESIAN_POINT('Origin',(-17.5,14.5,0.));
#431=CARTESIAN_POINT('',(-17.5,0.,3.25));
#432=CARTESIAN_POINT('Origin',(0.,0.,3.25));
#433=CARTESIAN_POINT('Origin',(0.,0.,58.));
#434=CARTESIAN_POINT('',(-13.,1.59204083889156E-15,55.));
#435=CARTESIAN_POINT('Origin',(0.,0.,55.));
#436=CARTESIAN_POINT('',(-7.,-8.57252759403147E-16,61.));
#437=CARTESIAN_POINT('',(-10.,1.22464679914735E-15,58.));
#438=CARTESIAN_POINT('Origin',(0.,0.,61.));
#439=CARTESIAN_POINT('Origin',(0.,0.,50.));
#440=CARTESIAN_POINT('',(-7.,8.57252759403147E-16,68.1089510595225));
#441=CARTESIAN_POINT('',(-7.,-8.57252759403147E-16,50.));
#442=CARTESIAN_POINT('Origin',(0.,0.,68.1089510595225));
#443=CARTESIAN_POINT('Origin',(0.,0.,55.));
#444=CARTESIAN_POINT('',(-15.15,-1.85533990070824E-15,55.));
#445=CARTESIAN_POINT('Origin',(0.,0.,55.));
#446=CARTESIAN_POINT('Origin',(4.4661576521922E-17,4.4661576521922E-17,
68.3726216950079));
#447=CARTESIAN_POINT('',(-7.88124555367537,-8.75851061016441E-16,68.6362923304934));
#448=CARTESIAN_POINT('Origin',(8.9323153043844E-17,8.9323153043844E-17,
68.6362923304934));
#449=CARTESIAN_POINT('',(-7.44062277683768,-8.66551910209794E-16,68.3726216950079));
#450=CARTESIAN_POINT('Origin',(-2.22044604925031E-15,-2.22044604925031E-15,
55.));
#451=CARTESIAN_POINT('',(-15.75,-4.14926475790739E-15,55.));
#452=CARTESIAN_POINT('Origin',(-2.22044604925031E-15,-2.22044604925031E-15,
55.));
#453=CARTESIAN_POINT('Origin',(0.,0.,55.));
#454=CARTESIAN_POINT('Origin',(0.,0.,27.5));
#455=CARTESIAN_POINT('',(-15.15,-1.85533990070824E-15,27.5));
#456=CARTESIAN_POINT('Origin',(0.,0.,27.5));
#457=CARTESIAN_POINT('',(-15.75,-1.92881870865708E-15,27.5));
#458=UNCERTAINTY_MEASURE_WITH_UNIT(LENGTH_MEASURE(0.01),#462,
'DISTANCE_ACCURACY_VALUE',
'Maximum model space distance between geometric entities at asserted c
onnectivities');
#459=UNCERTAINTY_MEASURE_WITH_UNIT(LENGTH_MEASURE(0.01),#462,
'DISTANCE_ACCURACY_VALUE',
'Maximum model space distance between geometric entities at asserted c
onnectivities');
#460=(
GEOMETRIC_REPRESENTATION_CONTEXT(3)
GLOBAL_UNCERTAINTY_ASSIGNED_CONTEXT((#458))
GLOBAL_UNIT_ASSIGNED_CONTEXT((#462,#464,#465))
REPRESENTATION_CONTEXT('','3D')
);
#461=(
GEOMETRIC_REPRESENTATION_CONTEXT(3)
GLOBAL_UNCERTAINTY_ASSIGNED_CONTEXT((#459))
GLOBAL_UNIT_ASSIGNED_CONTEXT((#462,#464,#465))
REPRESENTATION_CONTEXT('','3D')
);
#462=(
LENGTH_UNIT()
NAMED_UNIT(*)
SI_UNIT(.MILLI.,.METRE.)
);
#463=(
LENGTH_UNIT()
NAMED_UNIT(*)
SI_UNIT($,.METRE.)
);
#464=(
NAMED_UNIT(*)
PLANE_ANGLE_UNIT()
SI_UNIT($,.RADIAN.)
);
#465=(
NAMED_UNIT(*)
SI_UNIT($,.STERADIAN.)
SOLID_ANGLE_UNIT()
);
#466=SHAPE_DEFINITION_REPRESENTATION(#467,#468);
#467=PRODUCT_DEFINITION_SHAPE('',$,#470);
#468=SHAPE_REPRESENTATION('',(#270),#460);
#469=PRODUCT_DEFINITION_CONTEXT('part definition',#474,'design');
#470=PRODUCT_DEFINITION('JOINER35_30eye','JOINER35_30eye v4',#471,#469);
#471=PRODUCT_DEFINITION_FORMATION('',$,#476);
#472=PRODUCT_RELATED_PRODUCT_CATEGORY('JOINER35_30eye v4',
'JOINER35_30eye v4',(#476));
#473=APPLICATION_PROTOCOL_DEFINITION('international standard',
'automotive_design',2009,#474);
#474=APPLICATION_CONTEXT(
'Core Data for Automotive Mechanical Design Process');
#475=PRODUCT_CONTEXT('part definition',#474,'mechanical');
#476=PRODUCT('JOINER35_30eye','JOINER35_30eye v4',$,(#475));
#477=PRESENTATION_STYLE_ASSIGNMENT((#478));
#478=SURFACE_STYLE_USAGE(.BOTH.,#479);
#479=SURFACE_SIDE_STYLE('',(#480));
#480=SURFACE_STYLE_FILL_AREA(#481);
#481=FILL_AREA_STYLE('Steel - Satin',(#482));
#482=FILL_AREA_STYLE_COLOUR('Steel - Satin',#483);
#483=COLOUR_RGB('Steel - Satin',0.627450980392157,0.627450980392157,0.627450980392157);
ENDSEC;
END-ISO-10303-21;
